  0
SECTION
  2
HEADER
  9
$ACADVER
  1
AC1009
  9
$INSBASE
 10
-20.73645524095701
 20
-20.73645524095701
 30
0.0
  9
$EXTMIN
 10
-20.82842712474619
 20
-20.82842712474619
 30
0.0
  9
$EXTMAX
 10
29.19864899999999
 20
20.82842712474619
 30
0.0
  9
$LIMMIN
 10
-21.52388399999999
 20
-21.524217
  9
$LIMMAX
 10
420.0
 20
297.0
  9
$ORTHOMODE
 70
     1
  9
$REGENMODE
 70
     0
  9
$FILLMODE
 70
     1
  9
$QTEXTMODE
 70
     0
  9
$MIRRTEXT
 70
     0
  9
$DRAGMODE
 70
     2
  9
$LTSCALE
 40
1.0
  9
$OSMODE
 70
     0
  9
$ATTMODE
 70
     2
  9
$TEXTSIZE
 40
3.5
  9
$TRACEWID
 40
0.1
  9
$TEXTSTYLE
  7
STANDARD
  9
$CLAYER
  8
ITEM_50
  9
$CELTYPE
  6
BYLAYER
  9
$CECOLOR
 62
   256
  9
$DIMSCALE
 40
1.0
  9
$DIMASZ
 40
2.0
  9
$DIMEXO
 40
1.0
  9
$DIMDLI
 40
8.0
  9
$DIMRND
 40
0.0
  9
$DIMDLE
 40
0.0
  9
$DIMEXE
 40
2.0
  9
$DIMTP
 40
0.1
  9
$DIMTM
 40
0.1
  9
$DIMTXT
 40
3.5
  9
$DIMCEN
 40
2.0
  9
$DIMTSZ
 40
0.0
  9
$DIMTOL
 70
     0
  9
$DIMLIM
 70
     0
  9
$DIMTIH
 70
     0
  9
$DIMTOH
 70
     0
  9
$DIMSE1
 70
     0
  9
$DIMSE2
 70
     0
  9
$DIMTAD
 70
     1
  9
$DIMZIN
 70
     8
  9
$DIMBLK
  1

  9
$DIMASO
 70
     1
  9
$DIMSHO
 70
     1
  9
$DIMPOST
  1

  9
$DIMAPOST
  1

  9
$DIMALT
 70
     0
  9
$DIMALTD
 70
     2
  9
$DIMALTF
 40
25.39999999999999
  9
$DIMLFAC
 40
1.0
  9
$DIMTOFL
 70
     1
  9
$DIMTVP
 40
0.0
  9
$DIMTIX
 70
     0
  9
$DIMSOXD
 70
     0
  9
$DIMSAH
 70
     0
  9
$DIMBLK1
  1

  9
$DIMBLK2
  1

  9
$DIMSTYLE
  2
*UNNAMED
  9
$DIMCLRD
 70
     0
  9
$DIMCLRE
 70
     0
  9
$DIMCLRT
 70
     0
  9
$DIMTFAC
 40
1.0
  9
$DIMGAP
 40
0.09
  9
$LUNITS
 70
     2
  9
$LUPREC
 70
     3
  9
$SKETCHINC
 40
0.1
  9
$FILLETRAD
 40
0.5
  9
$AUNITS
 70
     0
  9
$AUPREC
 70
     1
  9
$MENU
  1

  9
$ELEVATION
 40
0.0
  9
$PELEVATION
 40
0.0
  9
$THICKNESS
 40
0.0
  9
$LIMCHECK
 70
     0
  9
$BLIPMODE
 70
     0
  9
$CHAMFERA
 40
5.0
  9
$CHAMFERB
 40
5.0
  9
$SKPOLY
 70
     1
  9
$TDCREATE
 40
2448898.395034375
  9
$TDUPDATE
 40
2449393.451675000
  9
$TDINDWG
 40
0.0121402778
  9
$TDUSRTIMER
 40
0.0121402778
  9
$USRTIMER
 70
     1
  9
$ANGBASE
 50
0.0
  9
$ANGDIR
 70
     0
  9
$PDMODE
 70
     3
  9
$PDSIZE
 40
0.0
  9
$PLINEWID
 40
0.0
  9
$COORDS
 70
     2
  9
$SPLFRAME
 70
     0
  9
$SPLINETYPE
 70
     6
  9
$SPLINESEGS
 70
     8
  9
$ATTDIA
 70
     1
  9
$ATTREQ
 70
     1
  9
$HANDLING
 70
     1
  9
$HANDSEED
  5
FD7
  9
$SURFTAB1
 70
     6
  9
$SURFTAB2
 70
     6
  9
$SURFTYPE
 70
     6
  9
$SURFU
 70
     6
  9
$SURFV
 70
     6
  9
$UCSNAME
  2

  9
$UCSORG
 10
0.0
 20
0.0
 30
0.0
  9
$UCSXDIR
 10
1.0
 20
0.0
 30
0.0
  9
$UCSYDIR
 10
0.0
 20
1.0
 30
0.0
  9
$PUCSNAME
  2

  9
$PUCSORG
 10
0.0
 20
0.0
 30
0.0
  9
$PUCSXDIR
 10
1.0
 20
0.0
 30
0.0
  9
$PUCSYDIR
 10
0.0
 20
1.0
 30
0.0
  9
$USERI1
 70
     0
  9
$USERI2
 70
     3
  9
$USERI3
 70
    15
  9
$USERI4
 70
     0
  9
$USERI5
 70
     0
  9
$USERR1
 40
1.0
  9
$USERR2
 40
1.0
  9
$USERR3
 40
0.0
  9
$USERR4
 40
1.0
  9
$USERR5
 40
0.0
  9
$WORLDVIEW
 70
     5
  9
$SHADEDGE
 70
     3
  9
$SHADEDIF
 70
    70
  9
$TILEMODE
 70
     1
  9
$MAXACTVP
 70
    16
  9
$PINSBASE
 10
0.0
 20
0.0
 30
0.0
  9
$PLIMCHECK
 70
     0
  9
$PEXTMIN
 10
1.000000000000000E+20
 20
1.000000000000000E+20
 30
1.000000000000000E+20
  9
$PEXTMAX
 10
-1.000000000000000E+20
 20
-1.000000000000000E+20
 30
-1.000000000000000E+20
  9
$PLIMMIN
 10
0.0
 20
0.0
  9
$PLIMMAX
 10
12.0
 20
9.0
  9
$UNITMODE
 70
     0
  9
$VISRETAIN
 70
     0
  9
$PLINEGEN
 70
     0
  9
$PSLTSCALE
 70
     0
  9
$TREEDEPTH
 70
  3020
  9
$DWGCODEPAGE
  3
undefined
  0
ENDSEC
  0
SECTION
  2
TABLES
  0
TABLE
  2
VPORT
 70
     6
  0
VPORT
  2
*ACTIVE
 70
     0
 10
0.0
 20
0.0
 11
1.0
 21
1.0
 12
7.894843200171584
 22
1.707571079419217
 13
0.0
 23
0.0
 14
1.0
 24
1.0
 15
10.0
 25
10.0
 16
0.0
 26
0.0
 36
1.0
 17
0.0
 27
0.0
 37
0.0
 40
44.88805264075245
 41
1.275675675675675
 42
50.0
 43
0.0
 44
0.0
 50
0.0
 51
0.0
 71
     0
 72
   100
 73
     1
 74
     0
 75
     0
 76
     0
 77
     0
 78
     0
  0
VPORT
  2
G-AF4R
 70
     0
 10
0.0
 20
0.0
 11
0.75
 21
1.0
 12
210.0
 22
185.4098669999999
 13
0.0
 23
0.0
 14
1.0
 24
1.0
 15
10.0
 25
10.0
 16
0.0
 26
0.0
 36
1.0
 17
0.0
 27
0.0
 37
0.0
 40
370.8197339999999
 41
1.132625999999999
 42
50.0
 43
0.0
 44
0.0
 50
0.0
 51
0.0
 71
     0
 72
   100
 73
     1
 74
     1
 75
     1
 76
     1
 77
     0
 78
     0
  0
VPORT
  2
G-AF4R
 70
     0
 10
0.75
 20
0.0
 11
1.0
 21
0.333333
 12
210.0
 22
182.3023699999999
 13
0.0
 23
0.0
 14
1.0
 24
1.0
 15
10.0
 25
10.0
 16
0.0
 26
0.0
 36
1.0
 17
0.0
 27
0.0
 37
0.0
 40
364.6047399999999
 41
1.151932
 42
50.0
 43
0.0
 44
0.0
 50
0.0
 51
0.0
 71
     0
 72
   100
 73
     1
 74
     1
 75
     1
 76
     1
 77
     0
 78
     0
  0
VPORT
  2
G-AF4R
 70
     0
 10
0.75
 20
0.333333
 11
1.0
 21
0.666667
 12
210.0
 22
182.3023699999999
 13
0.0
 23
0.0
 14
1.0
 24
1.0
 15
10.0
 25
10.0
 16
0.0
 26
0.0
 36
1.0
 17
0.0
 27
0.0
 37
0.0
 40
364.6047399999999
 41
1.151932
 42
50.0
 43
0.0
 44
0.0
 50
0.0
 51
0.0
 71
     0
 72
   100
 73
     1
 74
     1
 75
     1
 76
     1
 77
     0
 78
     0
  0
VPORT
  2
G-AF4R
 70
     0
 10
0.75
 20
0.666667
 11
1.0
 21
1.0
 12
210.0
 22
184.2626099999999
 13
0.0
 23
0.0
 14
1.0
 24
1.0
 15
10.0
 25
10.0
 16
0.0
 26
0.0
 36
1.0
 17
0.0
 27
0.0
 37
0.0
 40
368.5252209999999
 41
1.139678
 42
50.0
 43
0.0
 44
0.0
 50
0.0
 51
0.0
 71
     0
 72
   100
 73
     1
 74
     1
 75
     1
 76
     1
 77
     0
 78
     0
  0
ENDTAB
  0
TABLE
  2
LTYPE
 70
     2
  0
LTYPE
  2
CONTINUOUS
 70
    64
  3
Solid line
 72
    65
 73
     0
 40
0.0
  0
LTYPE
  2
GEN
 70
    64
  3
----------------------
 72
    65
 73
     2
 40
10000000000.0
 49
0.0
 49
10000000000.0
  0
ENDTAB
  0
TABLE
  2
LAYER
 70
     3
  0
LAYER
  2
0
 70
    64
 62
     7
  6
GEN
  0
LAYER
  2
ITEM_50
 70
    64
 62
     7
  6
CONTINUOUS
  0
LAYER
  2
ITEM_HILFE
 70
    64
 62
     3
  6
CONTINUOUS
  0
ENDTAB
  0
TABLE
  2
STYLE
 70
     2
  0
STYLE
  2
STANDARD
 70
     0
 40
0.0
 41
1.0
 50
0.0
 71
     0
 42
3.5
  3
ISO8
  4

  0
STYLE
  2
GENPRESET
 70
     0
 40
0.0
 41
1.0
 50
0.0
 71
     0
 42
3.5
  3
ISO8
  4

  0
ENDTAB
  0
TABLE
  2
VIEW
 70
     5
  0
VIEW
  2
1
 70
     0
 40
146.0
 10
113.5
 20
206.0
 41
207.0
 11
0.0
 21
0.0
 31
1.0
 12
0.0
 22
0.0
 32
0.0
 42
50.0
 43
0.0
 44
0.0
 50
0.0
 71
     0
  0
VIEW
  2
2
 70
     0
 40
128.0
 10
309.5
 20
218.0
 41
193.0
 11
0.0
 21
0.0
 31
1.0
 12
0.0
 22
0.0
 32
0.0
 42
50.0
 43
0.0
 44
0.0
 50
0.0
 71
     0
  0
VIEW
  2
3
 70
     0
 40
154.0
 10
127.0
 20
89.0
 41
220.0
 11
0.0
 21
0.0
 31
1.0
 12
0.0
 22
0.0
 32
0.0
 42
50.0
 43
0.0
 44
0.0
 50
0.0
 71
     0
  0
VIEW
  2
4
 70
     0
 40
67.0
 10
176.5
 20
43.5
 41
107.0
 11
0.0
 21
0.0
 31
1.0
 12
0.0
 22
0.0
 32
0.0
 42
50.0
 43
0.0
 44
0.0
 50
0.0
 71
     0
  0
VIEW
  2
5
 70
     0
 40
123.0
 10
207.0
 20
149.5
 41
184.0
 11
0.0
 21
0.0
 31
1.0
 12
0.0
 22
0.0
 32
0.0
 42
50.0
 43
0.0
 44
0.0
 50
0.0
 71
     0
  0
ENDTAB
  0
TABLE
  2
UCS
 70
     0
  0
ENDTAB
  0
TABLE
  2
APPID
 70
     1
  0
APPID
  2
ACAD
 70
    64
  0
ENDTAB
  0
TABLE
  2
DIMSTYLE
 70
     0
  0
ENDTAB
  0
ENDSEC
  0
SECTION
  2
BLOCKS
  0
BLOCK
  8
0
  5
FD3
  2
02603B
 70
    64
 10
0.0
 20
0.0
 30
0.0
  3
02603B
  0
ENDBLK
  8
0
  5
FD4
  0
BLOCK
  8
0
  5
FD5
  2
33B
 70
    64
 10
0.0
 20
0.0
 30
0.0
  3
33B
  0
ENDBLK
  8
0
  5
FD6
  0
ENDSEC
  0
SECTION
  2
ENTITIES
  0
INSERT
  8
0
  5
15C
  2
02603B
 10
51.834896
 20
66.47528699999999
 30
0.0
  0
INSERT
  8
0
  5
31A
  2
33B
 10
441.888755
 20
16.53364399999999
 30
0.0
  0
INSERT
  8
0
  5
3ED
  2
33B
 10
476.1924189999999
 20
303.5231009999999
 30
0.0
  0
ARC
  8
ITEM_50
  5
D61
 10
7.0
 20
-15.60628099999999
 30
0.0
 40
3.0
 50
0.0
 51
0.0
  0
ARC
  8
ITEM_50
  5
D62
 10
7.0
 20
-15.60628099999999
 30
0.0
 40
3.0
 50
0.0
 51
0.0
  0
POLYLINE
  8
ITEM_50
  5
E63
 66
     1
 10
0.0
 20
0.0
 30
0.0
 70
     1
  0
VERTEX
  8
ITEM_50
  5
E64
 10
0.0
 20
3.399999999999999
 30
0.0
 42
0.414214
  0
VERTEX
  8
ITEM_50
  5
E65
 10
-3.399999999999999
 20
0.0
 30
0.0
 42
0.414214
  0
VERTEX
  8
ITEM_50
  5
E66
 10
0.0
 20
-3.399999999999999
 30
0.0
 42
0.414214
  0
VERTEX
  8
ITEM_50
  5
E67
 10
3.399999999999999
 20
0.0
 30
0.0
 42
0.414214
  0
SEQEND
  8
ITEM_50
  5
E68
  0
ARC
  8
ITEM_50
  5
E87
 10
5.0
 20
-16.44999999999999
 30
0.0
 40
1.0
 50
90.0
 51
180.0
  0
LINE
  8
ITEM_50
  5
E88
 10
4.0
 20
-16.44999999999999
 30
0.0
 11
4.0
 21
-18.5
 31
0.0
  0
LINE
  8
ITEM_50
  5
E8E
 10
18.5
 20
-4.0
 30
0.0
 11
16.44999999999999
 21
-4.0
 31
0.0
  0
ARC
  8
ITEM_50
  5
E8F
 10
16.44999999999999
 20
-5.0
 30
0.0
 40
1.0
 50
90.0
 51
180.0
  0
LINE
  8
ITEM_50
  5
E90
 10
15.44999999999999
 20
-5.0
 30
0.0
 11
15.44999999999999
 21
-6.5
 31
0.0
  0
ARC
  8
ITEM_50
  5
E91
 10
15.94999999999999
 20
-6.5
 30
0.0
 40
0.5
 50
180.0
 51
270.0
  0
LINE
  8
ITEM_50
  5
E92
 10
15.94999999999999
 20
-7.0
 30
0.0
 11
17.316921
 21
-7.0
 31
0.0
  0
ARC
  8
ITEM_50
  5
E93
 10
17.316921
 20
-7.5
 30
0.0
 40
0.5
 50
0.0
 51
90.0
  0
ARC
  8
ITEM_50
  5
E94
 10
15.316921
 20
-7.5
 30
0.0
 40
2.5
 50
270.0
 51
0.0
  0
LINE
  8
ITEM_50
  5
E95
 10
15.316921
 20
-10.0
 30
0.0
 11
14.67036
 21
-10.0
 31
0.0
  0
ARC
  8
ITEM_50
  5
E96
 10
14.67036
 20
-8.0
 30
0.0
 40
2.0
 50
232.881707
 51
270.0
  0
ARC
  8
ITEM_50
  5
E97
 10
28.55
 20
10.33999999999999
 30
0.0
 40
25.0
 50
216.869898
 51
232.881707
  0
ARC
  8
ITEM_50
  5
E98
 10
11.75
 20
-2.259999999999999
 30
0.0
 40
4.0
 50
180.0
 51
216.869898
  0
LINE
  8
ITEM_50
  5
E99
 10
7.75
 20
-2.259999999999999
 30
0.0
 11
7.75
 21
0.0
 31
0.0
  0
LINE
  8
ITEM_50
  5
E9A
 10
7.75
 20
0.0
 30
0.0
 11
7.75
 21
2.259999999999999
 31
0.0
  0
ARC
  8
ITEM_50
  5
E9B
 10
11.75
 20
2.259999999999999
 30
0.0
 40
4.0
 50
143.1301019999999
 51
180.0
  0
ARC
  8
ITEM_50
  5
E9C
 10
28.55
 20
-10.33999999999999
 30
0.0
 40
25.0
 50
127.1182929999999
 51
143.1301019999999
  0
ARC
  8
ITEM_50
  5
E9D
 10
14.67036
 20
8.0
 30
0.0
 40
2.0
 50
90.0
 51
127.1182929999999
  0
LINE
  8
ITEM_50
  5
E9E
 10
14.67036
 20
10.0
 30
0.0
 11
15.316921
 21
10.0
 31
0.0
  0
ARC
  8
ITEM_50
  5
E9F
 10
15.316921
 20
7.5
 30
0.0
 40
2.5
 50
0.0
 51
90.0
  0
ARC
  8
ITEM_50
  5
EA0
 10
17.316921
 20
7.5
 30
0.0
 40
0.5
 50
270.0
 51
0.0
  0
LINE
  8
ITEM_50
  5
EA1
 10
17.316921
 20
7.0
 30
0.0
 11
15.94999999999999
 21
7.0
 31
0.0
  0
ARC
  8
ITEM_50
  5
EA2
 10
15.94999999999999
 20
6.5
 30
0.0
 40
0.5
 50
90.0
 51
180.0
  0
LINE
  8
ITEM_50
  5
EA3
 10
15.44999999999999
 20
6.5
 30
0.0
 11
15.44999999999999
 21
5.0
 31
0.0
  0
ARC
  8
ITEM_50
  5
EA4
 10
16.44999999999999
 20
5.0
 30
0.0
 40
1.0
 50
180.0
 51
270.0
  0
LINE
  8
ITEM_50
  5
EA5
 10
16.44999999999999
 20
4.0
 30
0.0
 11
18.5
 21
4.0
 31
0.0
  0
LINE
  8
ITEM_50
  5
EAB
 10
4.0
 20
18.5
 30
0.0
 11
4.0
 21
16.44999999999999
 31
0.0
  0
ARC
  8
ITEM_50
  5
EAC
 10
5.0
 20
16.44999999999999
 30
0.0
 40
1.0
 50
180.0
 51
270.0
  0
LINE
  8
ITEM_50
  5
EAD
 10
5.0
 20
15.44999999999999
 30
0.0
 11
6.5
 21
15.44999999999999
 31
0.0
  0
ARC
  8
ITEM_50
  5
EAE
 10
6.5
 20
15.94999999999999
 30
0.0
 40
0.5
 50
270.0
 51
0.0
  0
LINE
  8
ITEM_50
  5
EAF
 10
7.0
 20
15.94999999999999
 30
0.0
 11
7.0
 21
17.316921
 31
0.0
  0
ARC
  8
ITEM_50
  5
EB0
 10
7.5
 20
17.316921
 30
0.0
 40
0.5
 50
90.0
 51
180.0
  0
ARC
  8
ITEM_50
  5
EB1
 10
7.5
 20
15.316921
 30
0.0
 40
2.5
 50
0.0
 51
90.0
  0
LINE
  8
ITEM_50
  5
EB2
 10
10.0
 20
15.316921
 30
0.0
 11
10.0
 21
14.67036
 31
0.0
  0
ARC
  8
ITEM_50
  5
EB3
 10
8.0
 20
14.67036
 30
0.0
 40
2.0
 50
322.881707
 51
0.0
  0
ARC
  8
ITEM_50
  5
EB4
 10
-10.33999999999999
 20
28.55
 30
0.0
 40
25.0
 50
306.8698979999999
 51
322.881707
  0
ARC
  8
ITEM_50
  5
EB5
 10
2.259999999999999
 20
11.75
 30
0.0
 40
4.0
 50
270.0
 51
306.8698979999999
  0
LINE
  8
ITEM_50
  5
EB6
 10
2.259999999999999
 20
7.75
 30
0.0
 11
0.0
 21
7.75
 31
0.0
  0
LINE
  8
ITEM_50
  5
EB7
 10
0.0
 20
7.75
 30
0.0
 11
-2.259999999999999
 21
7.75
 31
0.0
  0
ARC
  8
ITEM_50
  5
EB8
 10
-2.259999999999999
 20
11.75
 30
0.0
 40
4.0
 50
233.1301019999999
 51
270.0
  0
ARC
  8
ITEM_50
  5
EB9
 10
10.33999999999999
 20
28.55
 30
0.0
 40
25.0
 50
217.1182929999999
 51
233.1301019999999
  0
ARC
  8
ITEM_50
  5
EBA
 10
-8.0
 20
14.67036
 30
0.0
 40
2.0
 50
180.0
 51
217.1182929999999
  0
LINE
  8
ITEM_50
  5
EBB
 10
-10.0
 20
14.67036
 30
0.0
 11
-10.0
 21
15.316921
 31
0.0
  0
ARC
  8
ITEM_50
  5
EBC
 10
-7.5
 20
15.316921
 30
0.0
 40
2.5
 50
90.0
 51
180.0
  0
ARC
  8
ITEM_50
  5
EBD
 10
-7.5
 20
17.316921
 30
0.0
 40
0.5
 50
0.0
 51
90.0
  0
LINE
  8
ITEM_50
  5
EBE
 10
-7.0
 20
17.316921
 30
0.0
 11
-7.0
 21
15.94999999999999
 31
0.0
  0
ARC
  8
ITEM_50
  5
EBF
 10
-6.5
 20
15.94999999999999
 30
0.0
 40
0.5
 50
180.0
 51
270.0
  0
LINE
  8
ITEM_50
  5
EC0
 10
-6.5
 20
15.44999999999999
 30
0.0
 11
-5.0
 21
15.44999999999999
 31
0.0
  0
ARC
  8
ITEM_50
  5
EC1
 10
-5.0
 20
16.44999999999999
 30
0.0
 40
1.0
 50
270.0
 51
0.0
  0
LINE
  8
ITEM_50
  5
EC2
 10
-4.0
 20
16.44999999999999
 30
0.0
 11
-4.0
 21
18.5
 31
0.0
  0
LINE
  8
ITEM_50
  5
EC8
 10
-18.5
 20
4.0
 30
0.0
 11
-16.44999999999999
 21
4.0
 31
0.0
  0
ARC
  8
ITEM_50
  5
EC9
 10
-16.44999999999999
 20
5.0
 30
0.0
 40
1.0
 50
270.0
 51
0.0
  0
LINE
  8
ITEM_50
  5
ECA
 10
-15.44999999999999
 20
5.0
 30
0.0
 11
-15.44999999999999
 21
6.5
 31
0.0
  0
ARC
  8
ITEM_50
  5
ECB
 10
-15.94999999999999
 20
6.5
 30
0.0
 40
0.5
 50
0.0
 51
90.0
  0
LINE
  8
ITEM_50
  5
ECC
 10
-15.94999999999999
 20
7.0
 30
0.0
 11
-17.316921
 21
7.0
 31
0.0
  0
ARC
  8
ITEM_50
  5
ECD
 10
-17.316921
 20
7.5
 30
0.0
 40
0.5
 50
180.0
 51
270.0
  0
ARC
  8
ITEM_50
  5
ECE
 10
-15.316921
 20
7.5
 30
0.0
 40
2.5
 50
90.0
 51
180.0
  0
LINE
  8
ITEM_50
  5
ECF
 10
-15.316921
 20
10.0
 30
0.0
 11
-14.67036
 21
10.0
 31
0.0
  0
ARC
  8
ITEM_50
  5
ED0
 10
-14.67036
 20
8.0
 30
0.0
 40
2.0
 50
52.88170699999999
 51
90.0
  0
ARC
  8
ITEM_50
  5
ED1
 10
-28.55
 20
-10.33999999999999
 30
0.0
 40
25.0
 50
36.86989799999999
 51
52.88170699999999
  0
ARC
  8
ITEM_50
  5
ED2
 10
-11.75
 20
2.259999999999999
 30
0.0
 40
4.0
 50
0.0
 51
36.86989799999999
  0
LINE
  8
ITEM_50
  5
ED3
 10
-7.75
 20
2.259999999999999
 30
0.0
 11
-7.75
 21
0.0
 31
0.0
  0
LINE
  8
ITEM_50
  5
ED4
 10
-7.75
 20
0.0
 30
0.0
 11
-7.75
 21
-2.259999999999999
 31
0.0
  0
ARC
  8
ITEM_50
  5
ED5
 10
-11.75
 20
-2.259999999999999
 30
0.0
 40
4.0
 50
323.130102
 51
0.0
  0
ARC
  8
ITEM_50
  5
ED6
 10
-28.55
 20
10.33999999999999
 30
0.0
 40
25.0
 50
307.1182929999999
 51
323.130102
  0
ARC
  8
ITEM_50
  5
ED7
 10
-14.67036
 20
-8.0
 30
0.0
 40
2.0
 50
270.0
 51
307.1182929999999
  0
LINE
  8
ITEM_50
  5
ED8
 10
-14.67036
 20
-10.0
 30
0.0
 11
-15.316921
 21
-10.0
 31
0.0
  0
ARC
  8
ITEM_50
  5
ED9
 10
-15.316921
 20
-7.5
 30
0.0
 40
2.5
 50
180.0
 51
270.0
  0
ARC
  8
ITEM_50
  5
EDA
 10
-17.316921
 20
-7.5
 30
0.0
 40
0.5
 50
90.0
 51
180.0
  0
LINE
  8
ITEM_50
  5
EDB
 10
-17.316921
 20
-7.0
 30
0.0
 11
-15.94999999999999
 21
-7.0
 31
0.0
  0
ARC
  8
ITEM_50
  5
EDC
 10
-15.94999999999999
 20
-6.5
 30
0.0
 40
0.5
 50
270.0
 51
0.0
  0
LINE
  8
ITEM_50
  5
EDD
 10
-15.44999999999999
 20
-6.5
 30
0.0
 11
-15.44999999999999
 21
-5.0
 31
0.0
  0
ARC
  8
ITEM_50
  5
EDE
 10
-16.44999999999999
 20
-5.0
 30
0.0
 40
1.0
 50
0.0
 51
90.0
  0
LINE
  8
ITEM_50
  5
EDF
 10
-16.44999999999999
 20
-4.0
 30
0.0
 11
-18.5
 21
-4.0
 31
0.0
  0
LINE
  8
ITEM_50
  5
EE5
 10
-4.0
 20
-18.5
 30
0.0
 11
-4.0
 21
-16.44999999999999
 31
0.0
  0
ARC
  8
ITEM_50
  5
EE6
 10
-5.0
 20
-16.44999999999999
 30
0.0
 40
1.0
 50
0.0
 51
90.0
  0
LINE
  8
ITEM_50
  5
EE7
 10
-5.0
 20
-15.44999999999999
 30
0.0
 11
-6.5
 21
-15.44999999999999
 31
0.0
  0
ARC
  8
ITEM_50
  5
EE8
 10
-6.5
 20
-15.94999999999999
 30
0.0
 40
0.5
 50
90.0
 51
180.0
  0
LINE
  8
ITEM_50
  5
EE9
 10
-7.0
 20
-15.94999999999999
 30
0.0
 11
-7.0
 21
-17.316921
 31
0.0
  0
ARC
  8
ITEM_50
  5
EEA
 10
-7.5
 20
-17.316921
 30
0.0
 40
0.5
 50
270.0
 51
0.0
  0
ARC
  8
ITEM_50
  5
EEB
 10
-7.5
 20
-15.316921
 30
0.0
 40
2.5
 50
180.0
 51
270.0
  0
LINE
  8
ITEM_50
  5
EEC
 10
-10.0
 20
-15.316921
 30
0.0
 11
-10.0
 21
-14.67036
 31
0.0
  0
ARC
  8
ITEM_50
  5
EED
 10
-8.0
 20
-14.67036
 30
0.0
 40
2.0
 50
142.881707
 51
180.0
  0
ARC
  8
ITEM_50
  5
EEE
 10
10.33999999999999
 20
-28.55
 30
0.0
 40
25.0
 50
126.869898
 51
142.881707
  0
ARC
  8
ITEM_50
  5
EEF
 10
-2.259999999999999
 20
-11.75
 30
0.0
 40
4.0
 50
90.0
 51
126.869898
  0
LINE
  8
ITEM_50
  5
EF0
 10
-2.259999999999999
 20
-7.75
 30
0.0
 11
0.0
 21
-7.75
 31
0.0
  0
LINE
  8
ITEM_50
  5
EF1
 10
0.0
 20
-7.75
 30
0.0
 11
2.259999999999999
 21
-7.75
 31
0.0
  0
ARC
  8
ITEM_50
  5
EF2
 10
2.259999999999999
 20
-11.75
 30
0.0
 40
4.0
 50
53.130102
 51
90.0
  0
ARC
  8
ITEM_50
  5
EF3
 10
-10.33999999999999
 20
-28.55
 30
0.0
 40
25.0
 50
37.118293
 51
53.130102
  0
ARC
  8
ITEM_50
  5
EF4
 10
8.0
 20
-14.67036
 30
0.0
 40
2.0
 50
0.0
 51
37.118293
  0
LINE
  8
ITEM_50
  5
EF5
 10
10.0
 20
-14.67036
 30
0.0
 11
10.0
 21
-15.316921
 31
0.0
  0
ARC
  8
ITEM_50
  5
EF6
 10
7.5
 20
-15.316921
 30
0.0
 40
2.5
 50
270.0
 51
0.0
  0
ARC
  8
ITEM_50
  5
EF7
 10
7.5
 20
-17.316921
 30
0.0
 40
0.5
 50
180.0
 51
270.0
  0
LINE
  8
ITEM_50
  5
EF8
 10
7.0
 20
-17.316921
 30
0.0
 11
7.0
 21
-15.94999999999999
 31
0.0
  0
ARC
  8
ITEM_50
  5
EF9
 10
6.5
 20
-15.94999999999999
 30
0.0
 40
0.5
 50
0.0
 51
90.0
  0
LINE
  8
ITEM_50
  5
EFA
 10
6.5
 20
-15.44999999999999
 30
0.0
 11
5.0
 21
-15.44999999999999
 31
0.0
  0
LINE
  8
ITEM_50
  5
F01
 10
-16.0
 20
20.0
 30
0.0
 11
-5.5
 21
20.0
 31
0.0
  0
LINE
  8
ITEM_50
  5
F02
 10
20.0
 20
16.0
 30
0.0
 11
20.0
 21
5.5
 31
0.0
  0
LINE
  8
ITEM_50
  5
F03
 10
16.0
 20
-20.0
 30
0.0
 11
5.5
 21
-20.0
 31
0.0
  0
LINE
  8
ITEM_50
  5
F04
 10
-20.0
 20
-16.0
 30
0.0
 11
-20.0
 21
-5.5
 31
0.0
  0
POINT
  8
ITEM_HILFE
  5
F05
 10
-20.0
 20
20.0
 30
0.0
  0
POINT
  8
ITEM_HILFE
  5
F06
 10
20.0
 20
20.0
 30
0.0
  0
POINT
  8
ITEM_HILFE
  5
F07
 10
20.0
 20
-20.0
 30
0.0
  0
POINT
  8
ITEM_HILFE
  5
F08
 10
-20.0
 20
-20.0
 30
0.0
  0
POINT
  8
ITEM_HILFE
  5
F09
 10
-20.0
 20
0.0
 30
0.0
  0
POINT
  8
ITEM_HILFE
  5
F0F
 10
-15.44999999999999
 20
0.0
 30
0.0
  0
POINT
  8
ITEM_HILFE
  5
F10
 10
0.0
 20
-20.0
 30
0.0
  0
POINT
  8
ITEM_HILFE
  5
F11
 10
0.0
 20
-15.44999999999999
 30
0.0
  0
POINT
  8
ITEM_HILFE
  5
F12
 10
20.0
 20
0.0
 30
0.0
  0
POINT
  8
ITEM_HILFE
  5
F13
 10
15.44999999999999
 20
0.0
 30
0.0
  0
POINT
  8
ITEM_HILFE
  5
F14
 10
0.0
 20
20.0
 30
0.0
  0
POINT
  8
ITEM_HILFE
  5
F15
 10
0.0
 20
15.44999999999999
 30
0.0
  0
ARC
  8
ITEM_50
  5
F16
 10
-16.0
 20
16.0
 30
0.0
 40
4.0
 50
90.0
 51
180.0
  0
ARC
  8
ITEM_50
  5
F17
 10
16.0
 20
16.0
 30
0.0
 40
4.0
 50
0.0
 51
90.0
  0
ARC
  8
ITEM_50
  5
F18
 10
16.0
 20
-16.0
 30
0.0
 40
4.0
 50
270.0
 51
0.0
  0
ARC
  8
ITEM_50
  5
F19
 10
-16.0
 20
-16.0
 30
0.0
 40
4.0
 50
180.0
 51
270.0
  0
LINE
  8
ITEM_50
  5
F1A
 10
5.5
 20
20.0
 30
0.0
 11
16.0
 21
20.0
 31
0.0
  0
ARC
  8
ITEM_50
  5
F1B
 10
-5.5
 20
18.5
 30
0.0
 40
1.5
 50
0.0
 51
90.0
  0
ARC
  8
ITEM_50
  5
F1C
 10
5.5
 20
18.5
 30
0.0
 40
1.5
 50
90.0
 51
180.0
  0
LINE
  8
ITEM_50
  5
F1D
 10
-20.0
 20
5.5
 30
0.0
 11
-20.0
 21
16.0
 31
0.0
  0
LINE
  8
ITEM_50
  5
F1E
 10
-5.5
 20
-20.0
 30
0.0
 11
-16.0
 21
-20.0
 31
0.0
  0
LINE
  8
ITEM_50
  5
F1F
 10
20.0
 20
-5.5
 30
0.0
 11
20.0
 21
-16.0
 31
0.0
  0
ARC
  8
ITEM_50
  5
F20
 10
-18.5
 20
5.5
 30
0.0
 40
1.5
 50
180.0
 51
270.0
  0
ARC
  8
ITEM_50
  5
F21
 10
-18.5
 20
-5.5
 30
0.0
 40
1.5
 50
90.0
 51
180.0
  0
ARC
  8
ITEM_50
  5
F22
 10
-5.5
 20
-18.5
 30
0.0
 40
1.5
 50
270.0
 51
0.0
  0
ARC
  8
ITEM_50
  5
F23
 10
5.5
 20
-18.5
 30
0.0
 40
1.5
 50
180.0
 51
270.0
  0
ARC
  8
ITEM_50
  5
F24
 10
18.5
 20
-5.5
 30
0.0
 40
1.5
 50
0.0
 51
90.0
  0
ARC
  8
ITEM_50
  5
F25
 10
18.5
 20
5.5
 30
0.0
 40
1.5
 50
270.0
 51
0.0
  0
LINE
  8
ITEM_50
  5
F26
 10
28.19864899999999
 20
20.0
 30
0.0
 11
29.19864899999999
 21
20.0
 31
0.0
  0
LINE
  8
ITEM_50
  5
F27
 10
29.19864899999999
 20
20.0
 30
0.0
 11
29.19864899999999
 21
-20.0
 31
0.0
  0
LINE
  8
ITEM_50
  5
F28
 10
28.19864899999999
 20
20.0
 30
0.0
 11
28.19864899999999
 21
-20.0
 31
0.0
  0
LINE
  8
ITEM_50
  5
F29
 10
28.19864899999999
 20
-20.0
 30
0.0
 11
29.19864899999999
 21
-20.0
 31
0.0
  0
LINE
  8
ITEM_50
  5
F2B
 10
28.19864899999999
 20
4.0
 30
0.0
 11
29.19864899999999
 21
4.0
 31
0.0
  0
LINE
  8
ITEM_50
  5
F2C
 10
28.19864899999999
 20
-4.0
 30
0.0
 11
29.19864899999999
 21
-4.0
 31
0.0
  0
LINE
  8
ITEM_50
  5
F2D
 10
-15.93910799999999
 20
18.798421
 30
0.0
 11
-11.69999999999999
 21
18.798421
 31
0.0
  0
ARC
  8
ITEM_50
  5
F2E
 10
-12.08777399999999
 20
10.68106399999999
 30
0.0
 40
0.5
 50
231.9344389999999
 51
315.0
  0
LINE
  8
ITEM_50
  5
F2F
 10
-11.73422099999999
 20
10.32751099999999
 30
0.0
 11
-10.32751099999999
 21
11.73422099999999
 31
0.0
  0
ARC
  8
ITEM_50
  5
F30
 10
-10.68106399999999
 20
12.08777399999999
 30
0.0
 40
0.5
 50
315.0
 51
38.065561
  0
ARC
  8
ITEM_50
  5
F31
 10
10.33999999999999
 20
28.55
 30
0.0
 40
26.19999999999999
 50
217.1182929999999
 51
218.065561
  0
ARC
  8
ITEM_50
  5
F32
 10
-8.0
 20
14.67036
 30
0.0
 40
3.2
 50
180.0
 51
217.1182929999999
  0
LINE
  8
ITEM_50
  5
F33
 10
-11.19999999999999
 20
14.67036
 30
0.0
 11
-11.19999999999999
 21
18.298421
 31
0.0
  0
ARC
  8
ITEM_50
  5
F36
 10
-15.99906299999999
 20
15.99906299999999
 30
0.0
 40
2.799999999999999
 50
88.773069
 51
181.226931
  0
LINE
  8
ITEM_50
  5
F39
 10
-18.298421
 20
11.19999999999999
 30
0.0
 11
-14.67036
 21
11.19999999999999
 31
0.0
  0
ARC
  8
ITEM_50
  5
F3A
 10
-14.67036
 20
8.0
 30
0.0
 40
3.2
 50
52.88170699999999
 51
90.0
  0
ARC
  8
ITEM_50
  5
F3B
 10
-28.55
 20
-10.33999999999999
 30
0.0
 40
26.19999999999999
 50
51.93443899999999
 51
52.88170699999999
  0
LINE
  8
ITEM_50
  5
F66
 10
0.6
 20
-6.049999999999999
 30
0.0
 11
0.6
 21
-5.388876999999999
 31
0.0
  0
ARC
  8
ITEM_50
  5
F67
 10
1.1
 20
-5.388876999999999
 30
0.0
 40
0.5
 50
101.5369589999999
 51
180.0
  0
ARC
  8
ITEM_50
  5
F68
 10
0.0
 20
0.0
 30
0.0
 40
5.0
 50
281.536959
 51
348.4630409999999
  0
ARC
  8
ITEM_50
  5
F69
 10
5.388876999999999
 20
-1.1
 30
0.0
 40
0.5
 50
90.0
 51
168.463041
  0
LINE
  8
ITEM_50
  5
F6A
 10
5.388876999999999
 20
-0.6
 30
0.0
 11
6.049999999999999
 21
-0.6
 31
0.0
  0
ARC
  8
ITEM_50
  5
F6B
 10
6.049999999999999
 20
-1.1
 30
0.0
 40
0.5
 50
0.0
 51
90.0
  0
LINE
  8
ITEM_50
  5
F6C
 10
6.549999999999999
 20
-1.1
 30
0.0
 11
6.549999999999999
 21
-2.259999999999999
 31
0.0
  0
ARC
  8
ITEM_50
  5
F6D
 10
11.75
 20
-2.259999999999999
 30
0.0
 40
5.2
 50
180.0
 51
216.869898
  0
ARC
  8
ITEM_50
  5
F6E
 10
28.55
 20
10.33999999999999
 30
0.0
 40
26.19999999999999
 50
216.869898
 51
227.1970599999999
  0
ARC
  8
ITEM_50
  5
F6F
 10
10.40791199999999
 20
-9.249656999999999
 30
0.0
 40
0.5
 50
315.0
 51
47.19706
  0
LINE
  8
ITEM_50
  5
F70
 10
10.76146499999999
 20
-9.60321
 30
0.0
 11
9.60321
 21
-10.76146499999999
 31
0.0
  0
ARC
  8
ITEM_50
  5
F71
 10
9.249656999999999
 20
-10.40791199999999
 30
0.0
 40
0.5
 50
222.80294
 51
315.0
  0
ARC
  8
ITEM_50
  5
F72
 10
-10.33999999999999
 20
-28.55
 30
0.0
 40
26.19999999999999
 50
42.80293999999999
 51
53.130102
  0
ARC
  8
ITEM_50
  5
F73
 10
2.259999999999999
 20
-11.75
 30
0.0
 40
5.2
 50
53.130102
 51
90.0
  0
LINE
  8
ITEM_50
  5
F74
 10
2.259999999999999
 20
-6.549999999999999
 30
0.0
 11
1.1
 21
-6.549999999999999
 31
0.0
  0
ARC
  8
ITEM_50
  5
F75
 10
1.1
 20
-6.049999999999999
 30
0.0
 40
0.5
 50
180.0
 51
270.0
  0
ARC
  8
ITEM_50
  5
F76
 10
9.249656999999999
 20
10.40791199999999
 30
0.0
 40
0.5
 50
45.0
 51
137.1970599999999
  0
LINE
  8
ITEM_50
  5
F77
 10
9.60321
 20
10.76146499999999
 30
0.0
 11
10.76146499999999
 21
9.60321
 31
0.0
  0
ARC
  8
ITEM_50
  5
F78
 10
10.40791199999999
 20
9.249656999999999
 30
0.0
 40
0.5
 50
312.8029399999999
 51
45.0
  0
ARC
  8
ITEM_50
  5
F79
 10
28.55
 20
-10.33999999999999
 30
0.0
 40
26.19999999999999
 50
132.80294
 51
143.1301019999999
  0
ARC
  8
ITEM_50
  5
F7A
 10
11.75
 20
2.259999999999999
 30
0.0
 40
5.2
 50
143.1301019999999
 51
180.0
  0
LINE
  8
ITEM_50
  5
F7B
 10
6.549999999999999
 20
2.259999999999999
 30
0.0
 11
6.549999999999999
 21
1.1
 31
0.0
  0
ARC
  8
ITEM_50
  5
F7C
 10
6.049999999999999
 20
1.1
 30
0.0
 40
0.5
 50
270.0
 51
0.0
  0
LINE
  8
ITEM_50
  5
F7D
 10
6.049999999999999
 20
0.6
 30
0.0
 11
5.388876999999999
 21
0.6
 31
0.0
  0
ARC
  8
ITEM_50
  5
F7E
 10
5.388876999999999
 20
1.1
 30
0.0
 40
0.5
 50
191.5369589999999
 51
270.0
  0
ARC
  8
ITEM_50
  5
F7F
 10
0.0
 20
0.0
 30
0.0
 40
5.0
 50
11.53695899999999
 51
78.463041
  0
ARC
  8
ITEM_50
  5
F80
 10
1.1
 20
5.388876999999999
 30
0.0
 40
0.5
 50
180.0
 51
258.4630409999999
  0
LINE
  8
ITEM_50
  5
F81
 10
0.6
 20
5.388876999999999
 30
0.0
 11
0.6
 21
6.049999999999999
 31
0.0
  0
ARC
  8
ITEM_50
  5
F82
 10
1.1
 20
6.049999999999999
 30
0.0
 40
0.5
 50
90.0
 51
180.0
  0
LINE
  8
ITEM_50
  5
F83
 10
1.1
 20
6.549999999999999
 30
0.0
 11
2.259999999999999
 21
6.549999999999999
 31
0.0
  0
ARC
  8
ITEM_50
  5
F84
 10
2.259999999999999
 20
11.75
 30
0.0
 40
5.2
 50
270.0
 51
306.8698979999999
  0
ARC
  8
ITEM_50
  5
F85
 10
-10.33999999999999
 20
28.55
 30
0.0
 40
26.19999999999999
 50
306.8698979999999
 51
317.19706
  0
ARC
  8
ITEM_50
  5
F86
 10
0.0
 20
0.0
 30
0.0
 40
5.0
 50
101.5369589999999
 51
168.463041
  0
ARC
  8
ITEM_50
  5
F87
 10
-5.388876999999999
 20
1.1
 30
0.0
 40
0.5
 50
270.0
 51
348.4630409999999
  0
LINE
  8
ITEM_50
  5
F88
 10
-5.388876999999999
 20
0.6
 30
0.0
 11
-6.049999999999999
 21
0.6
 31
0.0
  0
ARC
  8
ITEM_50
  5
F89
 10
-6.049999999999999
 20
1.1
 30
0.0
 40
0.5
 50
180.0
 51
270.0
  0
LINE
  8
ITEM_50
  5
F8A
 10
-6.549999999999999
 20
1.1
 30
0.0
 11
-6.549999999999999
 21
2.259999999999999
 31
0.0
  0
ARC
  8
ITEM_50
  5
F8B
 10
-11.75
 20
2.259999999999999
 30
0.0
 40
5.2
 50
0.0
 51
36.86989799999999
  0
ARC
  8
ITEM_50
  5
F8C
 10
-28.55
 20
-10.33999999999999
 30
0.0
 40
26.19999999999999
 50
36.86989799999999
 51
47.19706
  0
ARC
  8
ITEM_50
  5
F8D
 10
-10.40791199999999
 20
9.249656999999999
 30
0.0
 40
0.5
 50
135.0
 51
227.1970599999999
  0
LINE
  8
ITEM_50
  5
F8E
 10
-10.76146499999999
 20
9.60321
 30
0.0
 11
-9.60321
 21
10.76146499999999
 31
0.0
  0
ARC
  8
ITEM_50
  5
F8F
 10
-9.249656999999999
 20
10.40791199999999
 30
0.0
 40
0.5
 50
42.80293999999999
 51
135.0
  0
ARC
  8
ITEM_50
  5
F90
 10
10.33999999999999
 20
28.55
 30
0.0
 40
26.19999999999999
 50
222.80294
 51
233.1301019999999
  0
ARC
  8
ITEM_50
  5
F91
 10
-2.259999999999999
 20
11.75
 30
0.0
 40
5.2
 50
233.1301019999999
 51
270.0
  0
LINE
  8
ITEM_50
  5
F92
 10
-2.259999999999999
 20
6.549999999999999
 30
0.0
 11
-1.1
 21
6.549999999999999
 31
0.0
  0
ARC
  8
ITEM_50
  5
F93
 10
-1.1
 20
6.049999999999999
 30
0.0
 40
0.5
 50
0.0
 51
90.0
  0
LINE
  8
ITEM_50
  5
F94
 10
-0.6
 20
6.049999999999999
 30
0.0
 11
-0.6
 21
5.388876999999999
 31
0.0
  0
ARC
  8
ITEM_50
  5
F95
 10
-1.1
 20
5.388876999999999
 30
0.0
 40
0.5
 50
281.536959
 51
0.0
  0
ARC
  8
ITEM_50
  5
F96
 10
-10.40791199999999
 20
-9.249656999999999
 30
0.0
 40
0.5
 50
132.80294
 51
225.0
  0
ARC
  8
ITEM_50
  5
F97
 10
-28.55
 20
10.33999999999999
 30
0.0
 40
26.19999999999999
 50
312.8029399999999
 51
323.130102
  0
ARC
  8
ITEM_50
  5
F98
 10
-11.75
 20
-2.259999999999999
 30
0.0
 40
5.2
 50
323.130102
 51
0.0
  0
LINE
  8
ITEM_50
  5
F99
 10
-6.549999999999999
 20
-2.259999999999999
 30
0.0
 11
-6.549999999999999
 21
-1.1
 31
0.0
  0
ARC
  8
ITEM_50
  5
F9A
 10
-6.049999999999999
 20
-1.1
 30
0.0
 40
0.5
 50
90.0
 51
180.0
  0
LINE
  8
ITEM_50
  5
F9B
 10
-6.049999999999999
 20
-0.6
 30
0.0
 11
-5.388876999999999
 21
-0.6
 31
0.0
  0
ARC
  8
ITEM_50
  5
F9C
 10
-5.388876999999999
 20
-1.1
 30
0.0
 40
0.5
 50
11.53695899999999
 51
90.0
  0
ARC
  8
ITEM_50
  5
F9D
 10
0.0
 20
0.0
 30
0.0
 40
5.0
 50
191.5369589999999
 51
258.4630409999999
  0
ARC
  8
ITEM_50
  5
F9E
 10
-1.1
 20
-5.388876999999999
 30
0.0
 40
0.5
 50
0.0
 51
78.463041
  0
LINE
  8
ITEM_50
  5
F9F
 10
-0.6
 20
-5.388876999999999
 30
0.0
 11
-0.6
 21
-6.049999999999999
 31
0.0
  0
ARC
  8
ITEM_50
  5
FA0
 10
-1.1
 20
-6.049999999999999
 30
0.0
 40
0.5
 50
270.0
 51
0.0
  0
LINE
  8
ITEM_50
  5
FA1
 10
-1.1
 20
-6.549999999999999
 30
0.0
 11
-2.259999999999999
 21
-6.549999999999999
 31
0.0
  0
ARC
  8
ITEM_50
  5
FA2
 10
-2.259999999999999
 20
-11.75
 30
0.0
 40
5.2
 50
90.0
 51
126.869898
  0
ARC
  8
ITEM_50
  5
FA3
 10
10.33999999999999
 20
-28.55
 30
0.0
 40
26.19999999999999
 50
126.869898
 51
137.1970599999999
  0
ARC
  8
ITEM_50
  5
FA4
 10
-9.249656999999999
 20
-10.40791199999999
 30
0.0
 40
0.5
 50
225.0
 51
317.19706
  0
LINE
  8
ITEM_50
  5
FA5
 10
-9.60321
 20
-10.76146499999999
 30
0.0
 11
-10.76146499999999
 21
-9.60321
 31
0.0
  0
LINE
  8
ITEM_50
  5
FA6
 10
-18.798421
 20
15.93910799999999
 30
0.0
 11
-18.798421
 21
11.69999999999999
 31
0.0
  0
ARC
  8
ITEM_50
  5
FA7
 10
-11.69999999999999
 20
18.298421
 30
0.0
 40
0.5
 50
0.0
 51
90.0
  0
ARC
  8
ITEM_50
  5
FA8
 10
-18.298421
 20
11.69999999999999
 30
0.0
 40
0.5
 50
180.0
 51
270.0
  0
ARC
  8
ITEM_50
  5
FA9
 10
-11.69999999999999
 20
-18.298421
 30
0.0
 40
0.5
 50
270.0
 51
0.0
  0
LINE
  8
ITEM_50
  5
FAA
 10
-15.93910799999999
 20
-18.798421
 30
0.0
 11
-11.69999999999999
 21
-18.798421
 31
0.0
  0
ARC
  8
ITEM_50
  5
FAB
 10
-15.99906299999999
 20
-15.99906299999999
 30
0.0
 40
2.799999999999999
 50
178.7730689999999
 51
271.2269309999999
  0
LINE
  8
ITEM_50
  5
FAC
 10
-18.798421
 20
-15.93910799999999
 30
0.0
 11
-18.798421
 21
-11.69999999999999
 31
0.0
  0
ARC
  8
ITEM_50
  5
FAD
 10
-18.298421
 20
-11.69999999999999
 30
0.0
 40
0.5
 50
90.0
 51
180.0
  0
LINE
  8
ITEM_50
  5
FAE
 10
-14.67036
 20
-11.19999999999999
 30
0.0
 11
-18.298421
 21
-11.19999999999999
 31
0.0
  0
ARC
  8
ITEM_50
  5
FAF
 10
-14.67036
 20
-8.0
 30
0.0
 40
3.2
 50
270.0
 51
307.1182929999999
  0
ARC
  8
ITEM_50
  5
FB0
 10
-12.08777399999999
 20
-10.68106399999999
 30
0.0
 40
0.5
 50
45.0
 51
128.065561
  0
ARC
  8
ITEM_50
  5
FB1
 10
-28.55
 20
10.33999999999999
 30
0.0
 40
26.19999999999999
 50
307.1182929999999
 51
308.065561
  0
LINE
  8
ITEM_50
  5
FB2
 10
-10.32751099999999
 20
-11.73422099999999
 30
0.0
 11
-11.73422099999999
 21
-10.32751099999999
 31
0.0
  0
ARC
  8
ITEM_50
  5
FB3
 10
-10.68106399999999
 20
-12.08777399999999
 30
0.0
 40
0.5
 50
321.9344389999999
 51
45.0
  0
ARC
  8
ITEM_50
  5
FB4
 10
10.33999999999999
 20
-28.55
 30
0.0
 40
26.19999999999999
 50
141.9344389999999
 51
142.881707
  0
ARC
  8
ITEM_50
  5
FB5
 10
-8.0
 20
-14.67036
 30
0.0
 40
3.2
 50
142.881707
 51
180.0
  0
LINE
  8
ITEM_50
  5
FB6
 10
-11.19999999999999
 20
-18.298421
 30
0.0
 11
-11.19999999999999
 21
-14.67036
 31
0.0
  0
ARC
  8
ITEM_50
  5
FB7
 10
18.298421
 20
-11.69999999999999
 30
0.0
 40
0.5
 50
0.0
 51
90.0
  0
LINE
  8
ITEM_50
  5
FB8
 10
18.798421
 20
-15.93910799999999
 30
0.0
 11
18.798421
 21
-11.69999999999999
 31
0.0
  0
ARC
  8
ITEM_50
  5
FB9
 10
15.99906299999999
 20
-15.99906299999999
 30
0.0
 40
2.799999999999999
 50
268.773069
 51
1.226931
  0
LINE
  8
ITEM_50
  5
FBA
 10
15.93910799999999
 20
-18.798421
 30
0.0
 11
11.69999999999999
 21
-18.798421
 31
0.0
  0
ARC
  8
ITEM_50
  5
FBB
 10
11.69999999999999
 20
-18.298421
 30
0.0
 40
0.5
 50
180.0
 51
270.0
  0
LINE
  8
ITEM_50
  5
FBC
 10
11.19999999999999
 20
-14.67036
 30
0.0
 11
11.19999999999999
 21
-18.298421
 31
0.0
  0
ARC
  8
ITEM_50
  5
FBD
 10
8.0
 20
-14.67036
 30
0.0
 40
3.2
 50
0.0
 51
37.118293
  0
ARC
  8
ITEM_50
  5
FBE
 10
10.68106399999999
 20
-12.08777399999999
 30
0.0
 40
0.5
 50
135.0
 51
218.065561
  0
ARC
  8
ITEM_50
  5
FBF
 10
-10.33999999999999
 20
-28.55
 30
0.0
 40
26.19999999999999
 50
37.118293
 51
38.065561
  0
LINE
  8
ITEM_50
  5
FC0
 10
11.73422099999999
 20
-10.32751099999999
 30
0.0
 11
10.32751099999999
 21
-11.73422099999999
 31
0.0
  0
ARC
  8
ITEM_50
  5
FC1
 10
12.08777399999999
 20
-10.68106399999999
 30
0.0
 40
0.5
 50
51.93443899999999
 51
135.0
  0
ARC
  8
ITEM_50
  5
FC2
 10
28.55
 20
10.33999999999999
 30
0.0
 40
26.19999999999999
 50
231.9344389999999
 51
232.881707
  0
ARC
  8
ITEM_50
  5
FC3
 10
14.67036
 20
-8.0
 30
0.0
 40
3.2
 50
232.881707
 51
270.0
  0
LINE
  8
ITEM_50
  5
FC4
 10
18.298421
 20
-11.19999999999999
 30
0.0
 11
14.67036
 21
-11.19999999999999
 31
0.0
  0
ARC
  8
ITEM_50
  5
FC5
 10
11.69999999999999
 20
18.298421
 30
0.0
 40
0.5
 50
90.0
 51
180.0
  0
LINE
  8
ITEM_50
  5
FC6
 10
15.93910799999999
 20
18.798421
 30
0.0
 11
11.69999999999999
 21
18.798421
 31
0.0
  0
ARC
  8
ITEM_50
  5
FC7
 10
15.99906299999999
 20
15.99906299999999
 30
0.0
 40
2.799999999999999
 50
358.773069
 51
91.22693099999999
  0
LINE
  8
ITEM_50
  5
FC8
 10
18.798421
 20
15.93910799999999
 30
0.0
 11
18.798421
 21
11.69999999999999
 31
0.0
  0
ARC
  8
ITEM_50
  5
FC9
 10
18.298421
 20
11.69999999999999
 30
0.0
 40
0.5
 50
270.0
 51
0.0
  0
LINE
  8
ITEM_50
  5
FCA
 10
14.67036
 20
11.19999999999999
 30
0.0
 11
18.298421
 21
11.19999999999999
 31
0.0
  0
ARC
  8
ITEM_50
  5
FCB
 10
14.67036
 20
8.0
 30
0.0
 40
3.2
 50
90.0
 51
127.1182929999999
  0
ARC
  8
ITEM_50
  5
FCC
 10
12.08777399999999
 20
10.68106399999999
 30
0.0
 40
0.5
 50
225.0
 51
308.065561
  0
ARC
  8
ITEM_50
  5
FCD
 10
28.55
 20
-10.33999999999999
 30
0.0
 40
26.19999999999999
 50
127.1182929999999
 51
128.065561
  0
LINE
  8
ITEM_50
  5
FCE
 10
10.32751099999999
 20
11.73422099999999
 30
0.0
 11
11.73422099999999
 21
10.32751099999999
 31
0.0
  0
ARC
  8
ITEM_50
  5
FCF
 10
10.68106399999999
 20
12.08777399999999
 30
0.0
 40
0.5
 50
141.9344389999999
 51
225.0
  0
ARC
  8
ITEM_50
  5
FD0
 10
-10.33999999999999
 20
28.55
 30
0.0
 40
26.19999999999999
 50
321.9344389999999
 51
322.881707
  0
ARC
  8
ITEM_50
  5
FD1
 10
8.0
 20
14.67036
 30
0.0
 40
3.2
 50
322.881707
 51
0.0
  0
LINE
  8
ITEM_50
  5
FD2
 10
11.19999999999999
 20
18.298421
 30
0.0
 11
11.19999999999999
 21
14.67036
 31
0.0
  0
ENDSEC
  0
EOF
